ISO-10303-21;
HEADER;
FILE_DESCRIPTION (( 'STEP AP203' ),
    '1' );
FILE_NAME ('Q-OZHWP-R2-12.7-980-M.STEP',
    '2020-12-22T09:15:17',
    ( '' ),
    ( '' ),
    'SwSTEP 2.0',
    'SolidWorks 2020',
    '' );
FILE_SCHEMA (( 'CONFIG_CONTROL_DESIGN' ));
ENDSEC;

DATA;
#1 = CARTESIAN_POINT ( 'NONE',  ( -1.614212418857619014, 0.000000000000000000, 12.69999999999999929 ) ) ;
#2 = DIRECTION ( 'NONE',  ( 0.000000000000000000, 0.000000000000000000, 1.000000000000000000 ) ) ;
#3 = FACE_OUTER_BOUND ( 'NONE', #13, .T. ) ;
#4 = APPROVAL_DATE_TIME ( #240, #115 ) ;
#5 = AXIS2_PLACEMENT_3D ( 'NONE', #165, #114, #237 ) ;
#6 = DIRECTION ( 'NONE',  ( -1.000000000000000000, -0.000000000000000000, -0.000000000000000000 ) ) ;
#7 = LOCAL_TIME ( 17, 15, 17.00000000000000000, #268 ) ;
#8 = LINE ( 'NONE', #292, #185 ) ;
#9 = CARTESIAN_POINT ( 'NONE',  ( -1.614212418857619014, 0.000000000000000000, 0.000000000000000000 ) ) ;
#10 = DATE_AND_TIME ( #118, #109 ) ;
#11 = ADVANCED_BREP_SHAPE_REPRESENTATION ( 'Q-OZHWP-R2-12.7-980-M', ( #204, #17 ), #316 ) ;
#12 = AXIS2_PLACEMENT_3D ( 'NONE', #132, #169, #230 ) ;
#13 = EDGE_LOOP ( 'NONE', ( #55, #196, #15, #324 ) ) ;
#14 = DIRECTION ( 'NONE',  ( 0.000000000000000000, 0.000000000000000000, 1.000000000000000000 ) ) ;
#15 = ORIENTED_EDGE ( 'NONE', *, *, #139, .T. ) ;
#16 = CARTESIAN_POINT ( 'NONE',  ( -1.500000000000000444, 0.000000000000000000, 6.349999999999999645 ) ) ;
#17 = AXIS2_PLACEMENT_3D ( 'NONE', #238, #2, #158 ) ;
#18 = DIRECTION ( 'NONE',  ( 0.000000000000000000, 0.000000000000000000, 1.000000000000000000 ) ) ;
#19 = VERTEX_POINT ( 'NONE', #181 ) ;
#20 = LINE ( 'NONE', #224, #273 ) ;
#21 = PRODUCT_DEFINITION_FORMATION_WITH_SPECIFIED_SOURCE ( 'ANY', '', #173, .NOT_KNOWN. ) ;
#22 = PERSON_AND_ORGANIZATION ( #297, #64 ) ;
#23 = VERTEX_POINT ( 'NONE', #255 ) ;
#24 = PERSON_AND_ORGANIZATION_ROLE ( 'creator' ) ;
#25 = ORIENTED_EDGE ( 'NONE', *, *, #123, .F. ) ;
#26 = CIRCLE ( 'NONE', #152, 6.349999999999999645 ) ;
#27 = PERSON_AND_ORGANIZATION ( #297, #64 ) ;
#28 = EDGE_CURVE ( 'NONE', #172, #234, #20, .T. ) ;
#29 = CARTESIAN_POINT ( 'NONE',  ( 3.000000000000000888, 7.776507174585692163E-16, -6.349999999999999645 ) ) ;
#30 = AXIS2_PLACEMENT_3D ( 'NONE', #263, #63, #31 ) ;
#31 = DIRECTION ( 'NONE',  ( -0.000000000000000000, 0.000000000000000000, 1.000000000000000000 ) ) ;
#32 = PERSON_AND_ORGANIZATION ( #297, #64 ) ;
#33 = DIRECTION ( 'NONE',  ( -1.000000000000000000, -0.000000000000000000, -0.000000000000000000 ) ) ;
#34 = FACE_BOUND ( 'NONE', #76, .T. ) ;
#35 = CC_DESIGN_PERSON_AND_ORGANIZATION_ASSIGNMENT ( #58, #202, ( #155 ) ) ;
#36 = AXIS2_PLACEMENT_3D ( 'NONE', #215, #168, #107 ) ;
#37 = DIRECTION ( 'NONE',  ( -1.000000000000000000, -0.000000000000000000, -0.000000000000000000 ) ) ;
#38 = PERSON_AND_ORGANIZATION ( #297, #64 ) ;
#39 = VECTOR ( 'NONE', #33, 1000.000000000000000 ) ;
#40 = ADVANCED_FACE ( 'NONE', ( #281 ), #130, .F. ) ;
#41 = CIRCLE ( 'NONE', #137, 12.69999999999999929 ) ;
#42 = CARTESIAN_POINT ( 'NONE',  ( 3.000000000000000000, 12.69999999999999929, 0.000000000000000000 ) ) ;
#43 = DIRECTION ( 'NONE',  ( -1.000000000000000000, -0.000000000000000000, -0.000000000000000000 ) ) ;
#44 = DIRECTION ( 'NONE',  ( -1.000000000000000000, -0.000000000000000000, -0.000000000000000000 ) ) ;
#45 =( LENGTH_UNIT ( ) NAMED_UNIT ( * ) SI_UNIT ( .MILLI., .METRE. ) );
#46 = EDGE_LOOP ( 'NONE', ( #193, #136 ) ) ;
#47 = CC_DESIGN_DATE_AND_TIME_ASSIGNMENT ( #49, #156, ( #155 ) ) ;
#48 = ORIENTED_EDGE ( 'NONE', *, *, #191, .F. ) ;
#49 = DATE_AND_TIME ( #264, #262 ) ;
#50 = ORIENTED_EDGE ( 'NONE', *, *, #83, .F. ) ;
#51 = AXIS2_PLACEMENT_3D ( 'NONE', #270, #225, #303 ) ;
#52 = COORDINATED_UNIVERSAL_TIME_OFFSET ( 8, 0, .AHEAD. ) ;
#53 = CARTESIAN_POINT ( 'NONE',  ( 3.000000000000000888, 0.000000000000000000, 0.000000000000000000 ) ) ;
#54 = EDGE_CURVE ( 'NONE', #307, #249, #26, .T. ) ;
#55 = ORIENTED_EDGE ( 'NONE', *, *, #190, .T. ) ;
#56 = DIRECTION ( 'NONE',  ( -1.000000000000000000, -0.000000000000000000, -0.000000000000000000 ) ) ;
#57 = CIRCLE ( 'NONE', #229, 12.69999999999999929 ) ;
#58 = PERSON_AND_ORGANIZATION ( #297, #64 ) ;
#59 = CARTESIAN_POINT ( 'NONE',  ( -3.000000000000000000, 6.349999999999999645, 0.000000000000000000 ) ) ;
#60 = PLANE ( 'NONE',  #79 ) ;
#61 = CC_DESIGN_PERSON_AND_ORGANIZATION_ASSIGNMENT ( #320, #145, ( #211 ) ) ;
#62 = CALENDAR_DATE ( 2020, 22, 12 ) ;
#63 = DIRECTION ( 'NONE',  ( -1.000000000000000000, 0.000000000000000000, -0.000000000000000000 ) ) ;
#64 = ORGANIZATION ( 'UNSPECIFIED', 'UNSPECIFIED', '' ) ;
#65 = CYLINDRICAL_SURFACE ( 'NONE', #217, 12.69999999999999929 ) ;
#66 = APPROVAL_STATUS ( 'not_yet_approved' ) ;
#67 = EDGE_LOOP ( 'NONE', ( #50, #335, #257, #108 ) ) ;
#68 = ORIENTED_EDGE ( 'NONE', *, *, #299, .F. ) ;
#69 = APPROVAL_PERSON_ORGANIZATION ( #38, #95, #243 ) ;
#70 = CARTESIAN_POINT ( 'NONE',  ( -1.614212418857619014, 0.000000000000000000, 0.000000000000000000 ) ) ;
#71 = DIRECTION ( 'NONE',  ( 0.000000000000000000, 0.000000000000000000, 1.000000000000000000 ) ) ;
#72 = LOCAL_TIME ( 17, 15, 17.00000000000000000, #52 ) ;
#73 = CARTESIAN_POINT ( 'NONE',  ( -2.999999999999999556, 0.000000000000000000, 0.000000000000000000 ) ) ;
#74 = DIRECTION ( 'NONE',  ( 0.000000000000000000, 0.000000000000000000, 1.000000000000000000 ) ) ;
#75 = CC_DESIGN_PERSON_AND_ORGANIZATION_ASSIGNMENT ( #22, #232, ( #173 ) ) ;
#76 = EDGE_LOOP ( 'NONE', ( #153, #259 ) ) ;
#77 = COORDINATED_UNIVERSAL_TIME_OFFSET ( 8, 0, .AHEAD. ) ;
#78 = LINE ( 'NONE', #117, #39 ) ;
#79 = AXIS2_PLACEMENT_3D ( 'NONE', #59, #295, #163 ) ;
#80 = PERSON_AND_ORGANIZATION ( #297, #64 ) ;
#81 = CIRCLE ( 'NONE', #143, 6.349999999999999645 ) ;
#82 = VERTEX_POINT ( 'NONE', #305 ) ;
#83 = EDGE_CURVE ( 'NONE', #19, #249, #78, .T. ) ;
#84 = ORIENTED_EDGE ( 'NONE', *, *, #299, .T. ) ;
#85 = CARTESIAN_POINT ( 'NONE',  ( -1.500000000000000444, 0.000000000000000000, 0.000000000000000000 ) ) ;
#86 = AXIS2_PLACEMENT_3D ( 'NONE', #88, #90, #241 ) ;
#87 = DIRECTION ( 'NONE',  ( -1.000000000000000000, -0.000000000000000000, -0.000000000000000000 ) ) ;
#88 = CARTESIAN_POINT ( 'NONE',  ( -1.500000000000000444, 6.349999999999999645, 0.000000000000000000 ) ) ;
#89 = FACE_OUTER_BOUND ( 'NONE', #159, .T. ) ;
#90 = DIRECTION ( 'NONE',  ( 1.000000000000000000, 0.000000000000000000, 0.000000000000000000 ) ) ;
#91 = ADVANCED_FACE ( 'NONE', ( #144 ), #212, .F. ) ;
#92 = AXIS2_PLACEMENT_3D ( 'NONE', #53, #166, #14 ) ;
#93 = APPLICATION_CONTEXT ( 'configuration controlled 3d designs of mechanical parts and assemblies' ) ;
#94 = CIRCLE ( 'NONE', #36, 6.349999999999999645 ) ;
#95 = APPROVAL ( #66, 'UNSPECIFIED' ) ;
#96 = ORIENTED_EDGE ( 'NONE', *, *, #323, .F. ) ;
#97 = DIRECTION ( 'NONE',  ( -1.000000000000000000, -0.000000000000000000, -0.000000000000000000 ) ) ;
#98 = ADVANCED_FACE ( 'NONE', ( #89 ), #65, .T. ) ;
#99 = DIRECTION ( 'NONE',  ( -1.000000000000000000, -0.000000000000000000, -0.000000000000000000 ) ) ;
#100 = AXIS2_PLACEMENT_3D ( 'NONE', #301, #151, #134 ) ;
#101 = VERTEX_POINT ( 'NONE', #266 ) ;
#102 = CYLINDRICAL_SURFACE ( 'NONE', #287, 6.349999999999999645 ) ;
#103 = CIRCLE ( 'NONE', #133, 12.69999999999999929 ) ;
#104 = ORIENTED_EDGE ( 'NONE', *, *, #123, .T. ) ;
#105 = PLANE ( 'NONE',  #275 ) ;
#106 = EDGE_LOOP ( 'NONE', ( #304, #104, #222, #110 ) ) ;
#107 = DIRECTION ( 'NONE',  ( 0.000000000000000000, 0.000000000000000000, 1.000000000000000000 ) ) ;
#108 = ORIENTED_EDGE ( 'NONE', *, *, #54, .T. ) ;
#109 = LOCAL_TIME ( 17, 15, 17.00000000000000000, #291 ) ;
#110 = ORIENTED_EDGE ( 'NONE', *, *, #311, .F. ) ;
#111 = CALENDAR_DATE ( 2020, 22, 12 ) ;
#112 = PLANE ( 'NONE',  #86 ) ;
#113 = APPROVAL_STATUS ( 'not_yet_approved' ) ;
#114 = DIRECTION ( 'NONE',  ( -1.000000000000000000, -0.000000000000000000, -0.000000000000000000 ) ) ;
#115 = APPROVAL ( #113, 'UNSPECIFIED' ) ;
#116 = APPROVAL_ROLE ( '' ) ;
#117 = CARTESIAN_POINT ( 'NONE',  ( -1.614212418857619014, 7.776507174585692163E-16, -6.349999999999999645 ) ) ;
#118 = CALENDAR_DATE ( 2020, 22, 12 ) ;
#119 = CYLINDRICAL_SURFACE ( 'NONE', #160, 6.349999999999999645 ) ;
#120 = CARTESIAN_POINT ( 'NONE',  ( -2.999999999999999556, 7.776507174585692163E-16, -6.349999999999999645 ) ) ;
#121 = SHAPE_DEFINITION_REPRESENTATION ( #131, #11 ) ;
#122 = LINE ( 'NONE', #322, #319 ) ;
#123 = EDGE_CURVE ( 'NONE', #82, #101, #183, .T. ) ;
#124 = DIRECTION ( 'NONE',  ( -0.000000000000000000, 0.000000000000000000, 1.000000000000000000 ) ) ;
#125 = ADVANCED_FACE ( 'NONE', ( #288 ), #112, .F. ) ;
#126 = ORIENTED_EDGE ( 'NONE', *, *, #334, .F. ) ;
#127 = DIRECTION ( 'NONE',  ( 0.000000000000000000, 0.000000000000000000, 1.000000000000000000 ) ) ;
#128 = VERTEX_POINT ( 'NONE', #188 ) ;
#129 = CIRCLE ( 'NONE', #219, 6.349999999999999645 ) ;
#130 = CYLINDRICAL_SURFACE ( 'NONE', #100, 6.349999999999999645 ) ;
#131 = PRODUCT_DEFINITION_SHAPE ( 'NONE', 'NONE',  #155 ) ;
#132 = CARTESIAN_POINT ( 'NONE',  ( 1.500000000000000888, 0.000000000000000000, 0.000000000000000000 ) ) ;
#133 = AXIS2_PLACEMENT_3D ( 'NONE', #239, #186, #162 ) ;
#134 = DIRECTION ( 'NONE',  ( 0.000000000000000000, 0.000000000000000000, 1.000000000000000000 ) ) ;
#135 = EDGE_LOOP ( 'NONE', ( #201, #330 ) ) ;
#136 = ORIENTED_EDGE ( 'NONE', *, *, #274, .T. ) ;
#137 = AXIS2_PLACEMENT_3D ( 'NONE', #174, #150, #71 ) ;
#138 = CARTESIAN_POINT ( 'NONE',  ( -2.999999999999999556, 0.000000000000000000, 0.000000000000000000 ) ) ;
#139 = EDGE_CURVE ( 'NONE', #249, #307, #129, .T. ) ;
#140 = COORDINATED_UNIVERSAL_TIME_OFFSET ( 8, 0, .AHEAD. ) ;
#141 = DIRECTION ( 'NONE',  ( 1.000000000000000000, 0.000000000000000000, 0.000000000000000000 ) ) ;
#142 = LINE ( 'NONE', #1, #179 ) ;
#143 = AXIS2_PLACEMENT_3D ( 'NONE', #325, #97, #127 ) ;
#144 = FACE_OUTER_BOUND ( 'NONE', #231, .T. ) ;
#145 = PERSON_AND_ORGANIZATION_ROLE ( 'classification_officer' ) ;
#146 = APPROVAL_DATE_TIME ( #189, #95 ) ;
#147 = ORIENTED_EDGE ( 'NONE', *, *, #274, .F. ) ;
#148 = EDGE_CURVE ( 'NONE', #206, #278, #167, .T. ) ;
#149 = CYLINDRICAL_SURFACE ( 'NONE', #282, 12.69999999999999929 ) ;
#150 = DIRECTION ( 'NONE',  ( -1.000000000000000000, -0.000000000000000000, -0.000000000000000000 ) ) ;
#151 = DIRECTION ( 'NONE',  ( -1.000000000000000000, -0.000000000000000000, -0.000000000000000000 ) ) ;
#152 = AXIS2_PLACEMENT_3D ( 'NONE', #73, #227, #328 ) ;
#153 = ORIENTED_EDGE ( 'NONE', *, *, #54, .F. ) ;
#154 = ORIENTED_EDGE ( 'NONE', *, *, #267, .T. ) ;
#155 = PRODUCT_DEFINITION ( 'UNKNOWN', '', #21, #290 ) ;
#156 = DATE_TIME_ROLE ( 'creation_date' ) ;
#157 = ORIENTED_EDGE ( 'NONE', *, *, #28, .T. ) ;
#158 = DIRECTION ( 'NONE',  ( 1.000000000000000000, 0.000000000000000000, 0.000000000000000000 ) ) ;
#159 = EDGE_LOOP ( 'NONE', ( #178, #332, #254, #48 ) ) ;
#160 = AXIS2_PLACEMENT_3D ( 'NONE', #214, #37, #208 ) ;
#161 = FACE_OUTER_BOUND ( 'NONE', #175, .T. ) ;
#162 = DIRECTION ( 'NONE',  ( 0.000000000000000000, 0.000000000000000000, 1.000000000000000000 ) ) ;
#163 = DIRECTION ( 'NONE',  ( 0.000000000000000000, 0.000000000000000000, -1.000000000000000000 ) ) ;
#164 = ADVANCED_FACE ( 'NONE', ( #34, #269 ), #60, .F. ) ;
#165 = CARTESIAN_POINT ( 'NONE',  ( -1.614212418857619014, 0.000000000000000000, 0.000000000000000000 ) ) ;
#166 = DIRECTION ( 'NONE',  ( -1.000000000000000000, -0.000000000000000000, -0.000000000000000000 ) ) ;
#167 = LINE ( 'NONE', #314, #279 ) ;
#168 = DIRECTION ( 'NONE',  ( -1.000000000000000000, -0.000000000000000000, -0.000000000000000000 ) ) ;
#169 = DIRECTION ( 'NONE',  ( -1.000000000000000000, -0.000000000000000000, -0.000000000000000000 ) ) ;
#170 = ADVANCED_FACE ( 'NONE', ( #3 ), #119, .F. ) ;
#171 = CARTESIAN_POINT ( 'NONE',  ( -2.999999999999999556, 0.000000000000000000, 6.349999999999999645 ) ) ;
#172 = VERTEX_POINT ( 'NONE', #29 ) ;
#173 = PRODUCT ( 'Q-OZHWP-R2-12.7-980-M', 'Q-OZHWP-R2-12.7-980-M', '', ( #260 ) ) ;
#174 = CARTESIAN_POINT ( 'NONE',  ( -3.000000000000000000, 0.000000000000000000, 0.000000000000000000 ) ) ;
#175 = EDGE_LOOP ( 'NONE', ( #310, #68 ) ) ;
#176 = DATE_AND_TIME ( #111, #236 ) ;
#177 = CC_DESIGN_PERSON_AND_ORGANIZATION_ASSIGNMENT ( #333, #205, ( #21 ) ) ;
#178 = ORIENTED_EDGE ( 'NONE', *, *, #323, .T. ) ;
#179 = VECTOR ( 'NONE', #56, 1000.000000000000000 ) ;
#180 = ORIENTED_EDGE ( 'NONE', *, *, #28, .F. ) ;
#181 = CARTESIAN_POINT ( 'NONE',  ( -1.500000000000000444, 7.776507174585692163E-16, -6.349999999999999645 ) ) ;
#182 = CARTESIAN_POINT ( 'NONE',  ( 3.000000000000000888, 0.000000000000000000, 6.349999999999999645 ) ) ;
#183 = CIRCLE ( 'NONE', #226, 12.69999999999999929 ) ;
#184 = CALENDAR_DATE ( 2020, 22, 12 ) ;
#185 = VECTOR ( 'NONE', #245, 1000.000000000000000 ) ;
#186 = DIRECTION ( 'NONE',  ( -1.000000000000000000, -0.000000000000000000, -0.000000000000000000 ) ) ;
#187 = DIRECTION ( 'NONE',  ( 0.000000000000000000, 0.000000000000000000, 1.000000000000000000 ) ) ;
#188 = CARTESIAN_POINT ( 'NONE',  ( -3.000000000000000000, 0.000000000000000000, 12.69999999999999929 ) ) ;
#189 = DATE_AND_TIME ( #62, #7 ) ;
#190 = EDGE_CURVE ( 'NONE', #277, #19, #306, .T. ) ;
#191 = EDGE_CURVE ( 'NONE', #101, #128, #142, .T. ) ;
#192 = ORIENTED_EDGE ( 'NONE', *, *, #190, .F. ) ;
#193 = ORIENTED_EDGE ( 'NONE', *, *, #334, .T. ) ;
#194 = FACE_OUTER_BOUND ( 'NONE', #67, .T. ) ;
#195 = CLOSED_SHELL ( 'NONE', ( #98, #170, #40, #216, #91, #300, #164, #331, #326, #125 ) ) ;
#196 = ORIENTED_EDGE ( 'NONE', *, *, #83, .T. ) ;
#197 = AXIS2_PLACEMENT_3D ( 'NONE', #85, #141, #318 ) ;
#198 = FACE_OUTER_BOUND ( 'NONE', #283, .T. ) ;
#199 = EDGE_LOOP ( 'NONE', ( #147, #157, #84, #261 ) ) ;
#200 = FACE_BOUND ( 'NONE', #46, .T. ) ;
#201 = ORIENTED_EDGE ( 'NONE', *, *, #221, .T. ) ;
#202 = PERSON_AND_ORGANIZATION_ROLE ( 'creator' ) ;
#203 = ORIENTED_EDGE ( 'NONE', *, *, #148, .T. ) ;
#204 = MANIFOLD_SOLID_BREP ( 'Ðý×', #195 ) ;
#205 = PERSON_AND_ORGANIZATION_ROLE ( 'design_supplier' ) ;
#206 = VERTEX_POINT ( 'NONE', #182 ) ;
#207 = APPROVAL_ROLE ( '' ) ;
#208 = DIRECTION ( 'NONE',  ( 0.000000000000000000, 0.000000000000000000, 1.000000000000000000 ) ) ;
#209 = DIRECTION ( 'NONE',  ( -1.000000000000000000, -0.000000000000000000, -0.000000000000000000 ) ) ;
#210 =( NAMED_UNIT ( * ) PLANE_ANGLE_UNIT ( ) SI_UNIT ( $, .RADIAN. ) );
#211 = SECURITY_CLASSIFICATION ( '', '', #309 ) ;
#212 = CYLINDRICAL_SURFACE ( 'NONE', #5, 6.349999999999999645 ) ;
#213 = UNCERTAINTY_MEASURE_WITH_UNIT (LENGTH_MEASURE( 1.000000000000000082E-05 ), #45, 'distance_accuracy_value', 'NONE');
#214 = CARTESIAN_POINT ( 'NONE',  ( -1.614212418857619014, 0.000000000000000000, 0.000000000000000000 ) ) ;
#215 = CARTESIAN_POINT ( 'NONE',  ( 1.500000000000000888, 0.000000000000000000, 0.000000000000000000 ) ) ;
#216 = ADVANCED_FACE ( 'NONE', ( #161 ), #244, .F. ) ;
#217 = AXIS2_PLACEMENT_3D ( 'NONE', #9, #209, #289 ) ;
#218 = APPROVAL_PERSON_ORGANIZATION ( #27, #115, #116 ) ;
#219 = AXIS2_PLACEMENT_3D ( 'NONE', #138, #312, #187 ) ;
#220 = FACE_OUTER_BOUND ( 'NONE', #106, .T. ) ;
#221 = EDGE_CURVE ( 'NONE', #128, #23, #103, .T. ) ;
#222 = ORIENTED_EDGE ( 'NONE', *, *, #191, .T. ) ;
#223 = CIRCLE ( 'NONE', #12, 6.349999999999999645 ) ;
#224 = CARTESIAN_POINT ( 'NONE',  ( -1.614212418857619014, 7.776507174585692163E-16, -6.349999999999999645 ) ) ;
#225 = DIRECTION ( 'NONE',  ( 1.000000000000000000, 0.000000000000000000, 0.000000000000000000 ) ) ;
#226 = AXIS2_PLACEMENT_3D ( 'NONE', #317, #6, #286 ) ;
#227 = DIRECTION ( 'NONE',  ( -1.000000000000000000, -0.000000000000000000, -0.000000000000000000 ) ) ;
#228 = APPLICATION_CONTEXT ( 'configuration controlled 3d designs of mechanical parts and assemblies' ) ;
#229 = AXIS2_PLACEMENT_3D ( 'NONE', #272, #43, #74 ) ;
#230 = DIRECTION ( 'NONE',  ( 0.000000000000000000, 0.000000000000000000, 1.000000000000000000 ) ) ;
#231 = EDGE_LOOP ( 'NONE', ( #180, #126, #203, #154 ) ) ;
#232 = PERSON_AND_ORGANIZATION_ROLE ( 'design_owner' ) ;
#233 = ORIENTED_EDGE ( 'NONE', *, *, #293, .F. ) ;
#234 = VERTEX_POINT ( 'NONE', #265 ) ;
#235 = APPLICATION_PROTOCOL_DEFINITION ( 'international standard', 'config_control_design', 1994, #228 ) ;
#236 = LOCAL_TIME ( 17, 15, 17.00000000000000000, #140 ) ;
#237 = DIRECTION ( 'NONE',  ( 0.000000000000000000, 0.000000000000000000, 1.000000000000000000 ) ) ;
#238 = CARTESIAN_POINT ( 'NONE',  ( 0.000000000000000000, 0.000000000000000000, 0.000000000000000000 ) ) ;
#239 = CARTESIAN_POINT ( 'NONE',  ( -3.000000000000000000, 0.000000000000000000, 0.000000000000000000 ) ) ;
#240 = DATE_AND_TIME ( #184, #72 ) ;
#241 = DIRECTION ( 'NONE',  ( 0.000000000000000000, 0.000000000000000000, -1.000000000000000000 ) ) ;
#242 = CC_DESIGN_PERSON_AND_ORGANIZATION_ASSIGNMENT ( #80, #24, ( #21 ) ) ;
#243 = APPROVAL_ROLE ( '' ) ;
#244 = PLANE ( 'NONE',  #30 ) ;
#245 = DIRECTION ( 'NONE',  ( -1.000000000000000000, -0.000000000000000000, -0.000000000000000000 ) ) ;
#246 = EDGE_CURVE ( 'NONE', #82, #23, #8, .T. ) ;
#247 = APPROVAL_PERSON_ORGANIZATION ( #32, #321, #207 ) ;
#248 = DIRECTION ( 'NONE',  ( -1.000000000000000000, 0.000000000000000000, -0.000000000000000000 ) ) ;
#249 = VERTEX_POINT ( 'NONE', #120 ) ;
#250 = DIRECTION ( 'NONE',  ( 0.000000000000000000, 0.000000000000000000, 1.000000000000000000 ) ) ;
#251 = CC_DESIGN_APPROVAL ( #321, ( #21 ) ) ;
#252 = CARTESIAN_POINT ( 'NONE',  ( -1.614212418857619014, 0.000000000000000000, 0.000000000000000000 ) ) ;
#253 = DIRECTION ( 'NONE',  ( -1.000000000000000000, -0.000000000000000000, -0.000000000000000000 ) ) ;
#254 = ORIENTED_EDGE ( 'NONE', *, *, #221, .F. ) ;
#255 = CARTESIAN_POINT ( 'NONE',  ( -3.000000000000000000, 1.555301434917138433E-15, -12.69999999999999929 ) ) ;
#256 = CC_DESIGN_APPROVAL ( #95, ( #211 ) ) ;
#257 = ORIENTED_EDGE ( 'NONE', *, *, #276, .T. ) ;
#258 = APPROVAL_STATUS ( 'not_yet_approved' ) ;
#259 = ORIENTED_EDGE ( 'NONE', *, *, #139, .F. ) ;
#260 = MECHANICAL_CONTEXT ( 'NONE', #93, 'mechanical' ) ;
#261 = ORIENTED_EDGE ( 'NONE', *, *, #148, .F. ) ;
#262 = LOCAL_TIME ( 17, 15, 17.00000000000000000, #77 ) ;
#263 = CARTESIAN_POINT ( 'NONE',  ( 1.500000000000000444, 6.349999999999999645, 0.000000000000000000 ) ) ;
#264 = CALENDAR_DATE ( 2020, 22, 12 ) ;
#265 = CARTESIAN_POINT ( 'NONE',  ( 1.500000000000000888, 7.776507174585692163E-16, -6.349999999999999645 ) ) ;
#266 = CARTESIAN_POINT ( 'NONE',  ( 3.000000000000000000, 0.000000000000000000, 12.69999999999999929 ) ) ;
#267 = EDGE_CURVE ( 'NONE', #278, #234, #94, .T. ) ;
#268 = COORDINATED_UNIVERSAL_TIME_OFFSET ( 8, 0, .AHEAD. ) ;
#269 = FACE_OUTER_BOUND ( 'NONE', #135, .T. ) ;
#270 = CARTESIAN_POINT ( 'NONE',  ( -1.500000000000000444, 0.000000000000000000, 0.000000000000000000 ) ) ;
#271 = CC_DESIGN_DATE_AND_TIME_ASSIGNMENT ( #10, #315, ( #211 ) ) ;
#272 = CARTESIAN_POINT ( 'NONE',  ( 3.000000000000000000, 0.000000000000000000, 0.000000000000000000 ) ) ;
#273 = VECTOR ( 'NONE', #327, 1000.000000000000000 ) ;
#274 = EDGE_CURVE ( 'NONE', #172, #206, #298, .T. ) ;
#275 = AXIS2_PLACEMENT_3D ( 'NONE', #42, #248, #124 ) ;
#276 = EDGE_CURVE ( 'NONE', #277, #307, #122, .T. ) ;
#277 = VERTEX_POINT ( 'NONE', #16 ) ;
#278 = VERTEX_POINT ( 'NONE', #329 ) ;
#279 = VECTOR ( 'NONE', #87, 1000.000000000000000 ) ;
#280 = APPROVAL_DATE_TIME ( #176, #321 ) ;
#281 = FACE_OUTER_BOUND ( 'NONE', #199, .T. ) ;
#282 = AXIS2_PLACEMENT_3D ( 'NONE', #252, #99, #250 ) ;
#283 = EDGE_LOOP ( 'NONE', ( #96, #25 ) ) ;
#284 = PRODUCT_RELATED_PRODUCT_CATEGORY ( 'detail', '', ( #173 ) ) ;
#285 = APPLICATION_PROTOCOL_DEFINITION ( 'international standard', 'config_control_design', 1994, #93 ) ;
#286 = DIRECTION ( 'NONE',  ( 0.000000000000000000, 0.000000000000000000, 1.000000000000000000 ) ) ;
#287 = AXIS2_PLACEMENT_3D ( 'NONE', #70, #44, #18 ) ;
#288 = FACE_OUTER_BOUND ( 'NONE', #296, .T. ) ;
#289 = DIRECTION ( 'NONE',  ( 0.000000000000000000, 0.000000000000000000, 1.000000000000000000 ) ) ;
#290 = DESIGN_CONTEXT ( 'detailed design', #228, 'design' ) ;
#291 = COORDINATED_UNIVERSAL_TIME_OFFSET ( 8, 0, .AHEAD. ) ;
#292 = CARTESIAN_POINT ( 'NONE',  ( -1.614212418857619014, 1.555301434917138433E-15, -12.69999999999999929 ) ) ;
#293 = EDGE_CURVE ( 'NONE', #19, #277, #308, .T. ) ;
#294 = CC_DESIGN_SECURITY_CLASSIFICATION ( #211, ( #21 ) ) ;
#295 = DIRECTION ( 'NONE',  ( 1.000000000000000000, 0.000000000000000000, 0.000000000000000000 ) ) ;
#296 = EDGE_LOOP ( 'NONE', ( #192, #233 ) ) ;
#297 = PERSON ( 'UNSPECIFIED', 'UNSPECIFIED', 'UNSPECIFIED', ('UNSPECIFIED'), ('UNSPECIFIED'), ('UNSPECIFIED') ) ;
#298 = CIRCLE ( 'NONE', #92, 6.349999999999999645 ) ;
#299 = EDGE_CURVE ( 'NONE', #234, #278, #223, .T. ) ;
#300 = ADVANCED_FACE ( 'NONE', ( #194 ), #102, .F. ) ;
#301 = CARTESIAN_POINT ( 'NONE',  ( -1.614212418857619014, 0.000000000000000000, 0.000000000000000000 ) ) ;
#302 = CC_DESIGN_APPROVAL ( #115, ( #155 ) ) ;
#303 = DIRECTION ( 'NONE',  ( 0.000000000000000000, 0.000000000000000000, -1.000000000000000000 ) ) ;
#304 = ORIENTED_EDGE ( 'NONE', *, *, #246, .F. ) ;
#305 = CARTESIAN_POINT ( 'NONE',  ( 3.000000000000000000, 1.555301434917138433E-15, -12.69999999999999929 ) ) ;
#306 = CIRCLE ( 'NONE', #197, 6.349999999999999645 ) ;
#307 = VERTEX_POINT ( 'NONE', #171 ) ;
#308 = CIRCLE ( 'NONE', #51, 6.349999999999999645 ) ;
#309 = SECURITY_CLASSIFICATION_LEVEL ( 'unclassified' ) ;
#310 = ORIENTED_EDGE ( 'NONE', *, *, #267, .F. ) ;
#311 = EDGE_CURVE ( 'NONE', #23, #128, #41, .T. ) ;
#312 = DIRECTION ( 'NONE',  ( -1.000000000000000000, -0.000000000000000000, -0.000000000000000000 ) ) ;
#313 =( NAMED_UNIT ( * ) SI_UNIT ( $, .STERADIAN. ) SOLID_ANGLE_UNIT ( ) );
#314 = CARTESIAN_POINT ( 'NONE',  ( -1.614212418857619014, 0.000000000000000000, 6.349999999999999645 ) ) ;
#315 = DATE_TIME_ROLE ( 'classification_date' ) ;
#316 =( GEOMETRIC_REPRESENTATION_CONTEXT ( 3 ) GLOBAL_UNCERTAINTY_ASSIGNED_CONTEXT ( ( #213 ) ) GLOBAL_UNIT_ASSIGNED_CONTEXT ( ( #45, #210, #313 ) ) REPRESENTATION_CONTEXT ( 'NONE', 'WORKASPACE' ) );
#317 = CARTESIAN_POINT ( 'NONE',  ( 3.000000000000000000, 0.000000000000000000, 0.000000000000000000 ) ) ;
#318 = DIRECTION ( 'NONE',  ( 0.000000000000000000, 0.000000000000000000, -1.000000000000000000 ) ) ;
#319 = VECTOR ( 'NONE', #253, 1000.000000000000000 ) ;
#320 = PERSON_AND_ORGANIZATION ( #297, #64 ) ;
#321 = APPROVAL ( #258, 'UNSPECIFIED' ) ;
#322 = CARTESIAN_POINT ( 'NONE',  ( -1.614212418857619014, 0.000000000000000000, 6.349999999999999645 ) ) ;
#323 = EDGE_CURVE ( 'NONE', #101, #82, #57, .T. ) ;
#324 = ORIENTED_EDGE ( 'NONE', *, *, #276, .F. ) ;
#325 = CARTESIAN_POINT ( 'NONE',  ( 3.000000000000000888, 0.000000000000000000, 0.000000000000000000 ) ) ;
#326 = ADVANCED_FACE ( 'NONE', ( #198, #200 ), #105, .F. ) ;
#327 = DIRECTION ( 'NONE',  ( -1.000000000000000000, -0.000000000000000000, -0.000000000000000000 ) ) ;
#328 = DIRECTION ( 'NONE',  ( 0.000000000000000000, 0.000000000000000000, 1.000000000000000000 ) ) ;
#329 = CARTESIAN_POINT ( 'NONE',  ( 1.500000000000000888, 0.000000000000000000, 6.349999999999999645 ) ) ;
#330 = ORIENTED_EDGE ( 'NONE', *, *, #311, .T. ) ;
#331 = ADVANCED_FACE ( 'NONE', ( #220 ), #149, .T. ) ;
#332 = ORIENTED_EDGE ( 'NONE', *, *, #246, .T. ) ;
#333 = PERSON_AND_ORGANIZATION ( #297, #64 ) ;
#334 = EDGE_CURVE ( 'NONE', #206, #172, #81, .T. ) ;
#335 = ORIENTED_EDGE ( 'NONE', *, *, #293, .T. ) ;
ENDSEC;
END-ISO-10303-21;
